Nymphetamine Cradle of Filth gitar. 2

------------= Key =------------
~  let ring         *  stop string

intro (0:11)
G |------------------------------------------------|
D |------------------------------------------------|
A |------------------------------------------------| x6
E |3~----------------------4~----1~----------------|
B |------------4~----------------------1~----------|

Verse I (1:22)
G |------------------------------------------------|
D |------------------------------------------------|
A |------------------333333------------------------| x2
E |333333111111333333------333333111111------111111|
B |------------------------------------444444------|

Verse II (1:45)
G |------------------------------------------------|
D |------------------------------------------------|
A |333333333333111111111111------------------------| x2
E |------------------------444444444444333333336363|
B |------------------------------------------------|

Chorus (2:08)
G |------------------------------------------------------|
D |------------------------------------------------------|
A |------------------1~----*-----------------1~----*-----|
E |1--1--------------------------------------------------|
B |------3~----2~----*-----0~----3~----2~---*------0~----|
  |                                                      | x1
G |------------------------------------------------------|
D |------------------------------------------------------|
A |---------------1~----*-----------------1~---*---------|
E |------------------------------------------------------|
B |---3~----2~----*-----0~----3~----2~----*-----0~-------|


Interlude (2:33)
G |------------------------------------------------|
D |------------------------------------------------|
A |------------------------------------------------| x1
E |------------------------------------------------|
B |1~~---------------------------------------------|

Intro (2:44) x2
Verse I (3:08) x2
Verse II (3:31) x4
Chorus (4:18) x1